DESIGNBASE IGES                                                         S      1
1H,,1H;,14HDESIGNBASE V10,24HC:/Meshman/temp/beam.igs,                  G      1
20HRICOH DESIGNBASE V10,21HIGES PREPROCESSOR V10,16,38,6,308,15,        G      2
7Hunknown,1.000000,2,2HMM,32767,32.767000,15H20030922.092111,0.000001,  G      3
200.000002,7Hunknown,7Hunknown,11,0,15H20030922.092111;                 G      4
     502       1       0       0       1       0       0       000010000D      1
     502       0       0       2       1                               0D      2
     110       3       0       0       1       0       0       000010000D      3
     110       0       0       1       0                               0D      4
     110       4       0       0       1       0       0       000010000D      5
     110       0       0       1       0                               0D      6
     110       5       0       0       1       0       0       000010000D      7
     110       0       0       1       0                               0D      8
     110       6       0       0       1       0       0       000010000D      9
     110       0       0       1       0                               0D     10
     110       7       0       0       1       0       0       000010000D     11
     110       0       0       1       0                               0D     12
     110       8       0       0       1       0       0       000010000D     13
     110       0       0       1       0                               0D     14
     110       9       0       0       1       0       0       000010000D     15
     110       0       0       1       0                               0D     16
     110      10       0       0       1       0       0       000010000D     17
     110       0       0       1       0                               0D     18
     110      11       0       0       1       0       0       000010000D     19
     110       0       0       1       0                               0D     20
     110      12       0       0       1       0       0       000010000D     21
     110       0       0       1       0                               0D     22
     110      13       0       0       1       0       0       000010000D     23
     110       0       0       1       0                               0D     24
     110      14       0       0       1       0       0       000010000D     25
     110       0       0       1       0                               0D     26
     504      15       0       0       1       0       0       000010001D     27
     504       0       0       3       1                               0D     28
     508      18       0       0       1       0       0       000010000D     29
     508       0       0       1       1                               0D     30
     508      19       0       0       1       0       0       000010000D     31
     508       0       0       1       1                               0D     32
     508      20       0       0       1       0       0       000010000D     33
     508       0       0       1       1                               0D     34
     508      21       0       0       1       0       0       000010000D     35
     508       0       0       1       1                               0D     36
     508      22       0       0       1       0       0       000010000D     37
     508       0       0       1       1                               0D     38
     508      23       0       0       1       0       0       000010000D     39
     508       0       0       1       1                               0D     40
     128      24       0       0       1       0       0       000010000D     41
     128       0       0       3       1                               0D     42
     510      27       0       0       1       0       0       000010000D     43
     510       0       0       1       1                               0D     44
     128      28       0       0       1       0       0       000010000D     45
     128       0       0       3       1                               0D     46
     510      31       0       0       1       0       0       000010000D     47
     510       0       0       1       1                               0D     48
     128      32       0       0       1       0       0       000010000D     49
     128       0       0       3       1                               0D     50
     510      35       0       0       1       0       0       000010000D     51
     510       0       0       1       1                               0D     52
     128      36       0       0       1       0       0       000010000D     53
     128       0       0       3       1                               0D     54
     510      39       0       0       1       0       0       000010000D     55
     510       0       0       1       1                               0D     56
     128      40       0       0       1       0       0       000010000D     57
     128       0       0       3       1                               0D     58
     510      43       0       0       1       0       0       000010000D     59
     510       0       0       1       1                               0D     60
     128      44       0       0       1       0       0       000010000D     61
     128       0       0       3       1                               0D     62
     510      47       0       0       1       0       0       000010000D     63
     510       0       0       1       1                               0D     64
     514      48       0       0       1       0       0       000010000D     65
     514       0       0       1       1                               0D     66
     186      49       0       0       1       0       0       000000000D     67
     186       0       0       1       0                               0D     68
502,8,-5.0,-25.0,0.0,5.0,-25.0,0.0,5.0,25.0,0.0,-5.0,25.0,0.0,         1P      1
-5.0,-25.0,200.0,-5.0,25.0,200.0,5.0,-25.0,200.0,5.0,25.0,200.0;       1P      2
110,-5.0,-25.0,0.0,5.0,-25.0,0.0;                                      3P      3
110,5.0,-25.0,0.0,5.0,25.0,0.0;                                        5P      4
110,5.0,25.0,0.0,-5.0,25.0,0.0;                                        7P      5
110,-5.0,-25.0,0.0,-5.0,25.0,0.0;                                      9P      6
110,-5.0,-25.0,0.0,-5.0,-25.0,200.0;                                  11P      7
110,-5.0,-25.0,200.0,-5.0,25.0,200.0;                                 13P      8
110,5.0,-25.0,0.0,5.0,-25.0,200.0;                                    15P      9
110,-5.0,-25.0,200.0,5.0,-25.0,200.0;                                 17P     10
110,5.0,25.0,0.0,5.0,25.0,200.0;                                      19P     11
110,5.0,-25.0,200.0,5.0,25.0,200.0;                                   21P     12
110,-5.0,25.0,0.0,-5.0,25.0,200.0;                                    23P     13
110,-5.0,25.0,200.0,5.0,25.0,200.0;                                   25P     14
504,12,3,1,1,1,2,5,1,2,1,3,7,1,3,1,4,9,1,1,1,4,11,1,1,1,5,13,1,       27P     15
5,1,6,15,1,2,1,7,17,1,5,1,7,19,1,3,1,8,21,1,7,1,8,23,1,4,1,6,25,      27P     16
1,6,1,8;                                                              27P     17
508,4,0,27,4,1,0,0,27,3,0,0,0,27,2,0,0,0,27,1,0,0;                    29P     18
508,4,0,27,12,0,0,0,27,6,0,0,0,27,8,1,0,0,27,10,1,0;                  31P     19
508,4,0,27,8,0,0,0,27,5,0,0,0,27,1,1,0,0,27,7,1,0;                    33P     20
508,4,0,27,10,0,0,0,27,7,0,0,0,27,2,1,0,0,27,9,1,0;                   35P     21
508,4,0,27,11,0,0,0,27,4,0,0,0,27,5,1,0,0,27,6,1,0;                   37P     22
508,4,0,27,12,1,0,0,27,9,0,0,0,27,3,1,0,0,27,11,1,0;                  39P     23
128,1,1,1,1,0,0,1,0,0,0.0,0.0,1.0,1.0,0.0,0.0,1.0,1.0,1.0,1.0,        41P     24
1.0,1.0,5.0,-25.0,0.0,-5.0,-25.0,0.0,5.0,25.0,0.0,-5.0,25.0,0.0,      41P     25
0.0,1.0,0.0,1.0;                                                      41P     26
510,41,1,1,29;                                                        43P     27
128,1,1,1,1,0,0,1,0,0,0.0,0.0,1.0,1.0,0.0,0.0,1.0,1.0,1.0,1.0,        45P     28
1.0,1.0,-5.0,-25.0,200.0,5.0,-25.0,200.0,-5.0,25.0,200.0,5.0,         45P     29
25.0,200.0,0.0,1.0,0.0,1.0;                                           45P     30
510,45,1,1,31;                                                        47P     31
128,1,1,1,1,0,0,1,0,0,0.0,0.0,1.0,1.0,0.0,0.0,1.0,1.0,1.0,1.0,        49P     32
1.0,1.0,5.0,-25.0,200.0,-5.0,-25.0,200.0,5.0,-25.0,0.0,-5.0,          49P     33
-25.0,0.0,0.0,1.0,0.0,1.0;                                            49P     34
510,49,1,1,33;                                                        51P     35
128,1,1,1,1,0,0,1,0,0,0.0,0.0,1.0,1.0,0.0,0.0,1.0,1.0,1.0,1.0,        53P     36
1.0,1.0,5.0,25.0,200.0,5.0,-25.0,200.0,5.0,25.0,0.0,5.0,-25.0,        53P     37
0.0,0.0,1.0,0.0,1.0;                                                  53P     38
510,53,1,1,35;                                                        55P     39
128,1,1,1,1,0,0,1,0,0,0.0,0.0,1.0,1.0,0.0,0.0,1.0,1.0,1.0,1.0,        57P     40
1.0,1.0,-5.0,-25.0,200.0,-5.0,25.0,200.0,-5.0,-25.0,0.0,-5.0,         57P     41
25.0,0.0,0.0,1.0,0.0,1.0;                                             57P     42
510,57,1,1,37;                                                        59P     43
128,1,1,1,1,0,0,1,0,0,0.0,0.0,1.0,1.0,0.0,0.0,1.0,1.0,1.0,1.0,        61P     44
1.0,1.0,-5.0,25.0,200.0,5.0,25.0,200.0,-5.0,25.0,0.0,5.0,25.0,        61P     45
0.0,0.0,1.0,0.0,1.0;                                                  61P     46
510,61,1,1,39;                                                        63P     47
514,6,43,1,47,1,51,1,55,1,59,1,63,1;                                  65P     48
186,65,1,0;                                                           67P     49
S      1G      4D     68P     49                                        T      1
